ISO-10303-21;
HEADER;
FILE_DESCRIPTION (( 'STEP AP203' ),
    '1' );
FILE_NAME ('Q-SHPQWP-18-532-M.STEP',
    '2020-12-22T09:47:40',
    ( '' ),
    ( '' ),
    'SwSTEP 2.0',
    'SolidWorks 2020',
    '' );
FILE_SCHEMA (( 'CONFIG_CONTROL_DESIGN' ));
ENDSEC;

DATA;
#1 = PERSON_AND_ORGANIZATION ( #151, #5 ) ;
#2 = DIRECTION ( 'NONE',  ( 0.000000000000000000, 0.000000000000000000, 1.000000000000000000 ) ) ;
#3 = APPROVAL_ROLE ( '' ) ;
#4 = CARTESIAN_POINT ( 'NONE',  ( 2.999999999999999112, 0.000000000000000000, 0.000000000000000000 ) ) ;
#5 = ORGANIZATION ( 'UNSPECIFIED', 'UNSPECIFIED', '' ) ;
#6 = DIRECTION ( 'NONE',  ( -1.000000000000000000, -0.000000000000000000, -0.000000000000000000 ) ) ;
#7 = CYLINDRICAL_SURFACE ( 'NONE', #240, 9.000000000000000000 ) ;
#8 = DIRECTION ( 'NONE',  ( 1.000000000000000000, 0.000000000000000000, 0.000000000000000000 ) ) ;
#9 = LOCAL_TIME ( 17, 47, 40.00000000000000000, #134 ) ;
#10 = VECTOR ( 'NONE', #133, 1000.000000000000000 ) ;
#11 = ORIENTED_EDGE ( 'NONE', *, *, #242, .F. ) ;
#12 = ORIENTED_EDGE ( 'NONE', *, *, #253, .T. ) ;
#13 = CARTESIAN_POINT ( 'NONE',  ( 0.02150000000000052217, 9.000000000000000000, 0.000000000000000000 ) ) ;
#14 = EDGE_LOOP ( 'NONE', ( #238, #298 ) ) ;
#15 = CC_DESIGN_DATE_AND_TIME_ASSIGNMENT ( #126, #101, ( #318 ) ) ;
#16 = CIRCLE ( 'NONE', #271, 9.000000000000000000 ) ;
#17 = COORDINATED_UNIVERSAL_TIME_OFFSET ( 8, 0, .AHEAD. ) ;
#18 = ORIENTED_EDGE ( 'NONE', *, *, #63, .F. ) ;
#19 = PERSON_AND_ORGANIZATION ( #151, #5 ) ;
#20 = DIRECTION ( 'NONE',  ( -1.000000000000000000, -0.000000000000000000, -0.000000000000000000 ) ) ;
#21 = EDGE_CURVE ( 'NONE', #302, #168, #239, .T. ) ;
#22 = EDGE_CURVE ( 'NONE', #163, #91, #334, .T. ) ;
#23 = CALENDAR_DATE ( 2020, 22, 12 ) ;
#24 = DIRECTION ( 'NONE',  ( 0.000000000000000000, 0.000000000000000000, 1.000000000000000000 ) ) ;
#25 = AXIS2_PLACEMENT_3D ( 'NONE', #28, #6, #260 ) ;
#26 = DIRECTION ( 'NONE',  ( 0.000000000000000000, 0.000000000000000000, -1.000000000000000000 ) ) ;
#27 = PLANE ( 'NONE',  #265 ) ;
#28 = CARTESIAN_POINT ( 'NONE',  ( -1.614212418857619014, 0.000000000000000000, 0.000000000000000000 ) ) ;
#29 = EDGE_CURVE ( 'NONE', #219, #168, #156, .T. ) ;
#30 = AXIS2_PLACEMENT_3D ( 'NONE', #218, #34, #321 ) ;
#31 = CARTESIAN_POINT ( 'NONE',  ( -1.614212418857619014, 1.102182119232617714E-15, -9.000000000000000000 ) ) ;
#32 = CARTESIAN_POINT ( 'NONE',  ( -3.000000000000000000, 1.555301434917138433E-15, -12.69999999999999929 ) ) ;
#33 = CIRCLE ( 'NONE', #57, 9.000000000000000000 ) ;
#34 = DIRECTION ( 'NONE',  ( -1.000000000000000000, -0.000000000000000000, -0.000000000000000000 ) ) ;
#35 =( NAMED_UNIT ( * ) SI_UNIT ( $, .STERADIAN. ) SOLID_ANGLE_UNIT ( ) );
#36 = DIRECTION ( 'NONE',  ( 0.000000000000000000, 0.000000000000000000, 1.000000000000000000 ) ) ;
#37 = DIRECTION ( 'NONE',  ( 0.000000000000000000, 0.000000000000000000, -1.000000000000000000 ) ) ;
#38 = CALENDAR_DATE ( 2020, 22, 12 ) ;
#39 = PERSON_AND_ORGANIZATION ( #151, #5 ) ;
#40 = CARTESIAN_POINT ( 'NONE',  ( -3.000000000000000000, 0.000000000000000000, 0.000000000000000000 ) ) ;
#41 = PERSON_AND_ORGANIZATION ( #151, #5 ) ;
#42 = DIRECTION ( 'NONE',  ( 1.000000000000000000, 0.000000000000000000, 0.000000000000000000 ) ) ;
#43 = DIRECTION ( 'NONE',  ( -1.000000000000000000, -0.000000000000000000, -0.000000000000000000 ) ) ;
#44 = VERTEX_POINT ( 'NONE', #73 ) ;
#45 = MECHANICAL_CONTEXT ( 'NONE', #299, 'mechanical' ) ;
#46 = APPLICATION_CONTEXT ( 'configuration controlled 3d designs of mechanical parts and assemblies' ) ;
#47 = PERSON_AND_ORGANIZATION ( #151, #5 ) ;
#48 = DIRECTION ( 'NONE',  ( 0.000000000000000000, 0.000000000000000000, 1.000000000000000000 ) ) ;
#49 = DIRECTION ( 'NONE',  ( -1.000000000000000000, -0.000000000000000000, -0.000000000000000000 ) ) ;
#50 = DIRECTION ( 'NONE',  ( -1.000000000000000000, -0.000000000000000000, -0.000000000000000000 ) ) ;
#51 = CC_DESIGN_APPROVAL ( #259, ( #223 ) ) ;
#52 = CARTESIAN_POINT ( 'NONE',  ( -0.02150000000000047012, 0.000000000000000000, 0.000000000000000000 ) ) ;
#53 = APPROVAL ( #204, 'UNSPECIFIED' ) ;
#54 = CARTESIAN_POINT ( 'NONE',  ( 3.000000000000000000, 0.000000000000000000, 0.000000000000000000 ) ) ;
#55 = EDGE_LOOP ( 'NONE', ( #230, #125, #273, #303 ) ) ;
#56 = DIRECTION ( 'NONE',  ( -1.000000000000000000, -0.000000000000000000, -0.000000000000000000 ) ) ;
#57 = AXIS2_PLACEMENT_3D ( 'NONE', #100, #335, #130 ) ;
#58 = CARTESIAN_POINT ( 'NONE',  ( -0.02150000000000047012, 1.102182119232617714E-15, -9.000000000000000000 ) ) ;
#59 = FACE_OUTER_BOUND ( 'NONE', #122, .T. ) ;
#60 = CC_DESIGN_PERSON_AND_ORGANIZATION_ASSIGNMENT ( #232, #208, ( #224 ) ) ;
#61 = ORIENTED_EDGE ( 'NONE', *, *, #76, .F. ) ;
#62 = AXIS2_PLACEMENT_3D ( 'NONE', #283, #135, #2 ) ;
#63 = EDGE_CURVE ( 'NONE', #65, #294, #33, .T. ) ;
#64 = DIRECTION ( 'NONE',  ( -1.000000000000000000, -0.000000000000000000, -0.000000000000000000 ) ) ;
#65 = VERTEX_POINT ( 'NONE', #233 ) ;
#66 = DIRECTION ( 'NONE',  ( 1.000000000000000000, 0.000000000000000000, 0.000000000000000000 ) ) ;
#67 = ORIENTED_EDGE ( 'NONE', *, *, #70, .T. ) ;
#68 = PERSON_AND_ORGANIZATION_ROLE ( 'creator' ) ;
#69 = LOCAL_TIME ( 17, 47, 40.00000000000000000, #131 ) ;
#70 = EDGE_CURVE ( 'NONE', #278, #44, #205, .T. ) ;
#71 = ORIENTED_EDGE ( 'NONE', *, *, #187, .T. ) ;
#72 = DIRECTION ( 'NONE',  ( -1.000000000000000000, -0.000000000000000000, -0.000000000000000000 ) ) ;
#73 = CARTESIAN_POINT ( 'NONE',  ( -3.000000000000000000, 0.000000000000000000, 12.69999999999999929 ) ) ;
#74 = ADVANCED_FACE ( 'NONE', ( #331, #98 ), #229, .F. ) ;
#75 = DIRECTION ( 'NONE',  ( -1.000000000000000000, -0.000000000000000000, -0.000000000000000000 ) ) ;
#76 = EDGE_CURVE ( 'NONE', #294, #65, #275, .T. ) ;
#77 = DIRECTION ( 'NONE',  ( 0.000000000000000000, 0.000000000000000000, 1.000000000000000000 ) ) ;
#78 = VECTOR ( 'NONE', #90, 1000.000000000000000 ) ;
#79 = DIRECTION ( 'NONE',  ( -1.000000000000000000, -0.000000000000000000, -0.000000000000000000 ) ) ;
#80 = ORIENTED_EDGE ( 'NONE', *, *, #187, .F. ) ;
#81 = FACE_OUTER_BOUND ( 'NONE', #55, .T. ) ;
#82 = ORIENTED_EDGE ( 'NONE', *, *, #84, .F. ) ;
#83 = VECTOR ( 'NONE', #43, 1000.000000000000000 ) ;
#84 = EDGE_CURVE ( 'NONE', #235, #219, #108, .T. ) ;
#85 = AXIS2_PLACEMENT_3D ( 'NONE', #92, #196, #37 ) ;
#86 = FACE_OUTER_BOUND ( 'NONE', #14, .T. ) ;
#87 = EDGE_LOOP ( 'NONE', ( #118, #71 ) ) ;
#88 = ORIENTED_EDGE ( 'NONE', *, *, #190, .T. ) ;
#89 = AXIS2_PLACEMENT_3D ( 'NONE', #202, #200, #207 ) ;
#90 = DIRECTION ( 'NONE',  ( -1.000000000000000000, -0.000000000000000000, -0.000000000000000000 ) ) ;
#91 = VERTEX_POINT ( 'NONE', #174 ) ;
#92 = CARTESIAN_POINT ( 'NONE',  ( -3.000000000000000000, 9.000000000000000000, 0.000000000000000000 ) ) ;
#93 = ADVANCED_FACE ( 'NONE', ( #173 ), #27, .F. ) ;
#94 = APPLICATION_PROTOCOL_DEFINITION ( 'international standard', 'config_control_design', 1994, #46 ) ;
#95 = DIRECTION ( 'NONE',  ( -1.000000000000000000, -0.000000000000000000, -0.000000000000000000 ) ) ;
#96 = EDGE_LOOP ( 'NONE', ( #325, #225 ) ) ;
#97 = CALENDAR_DATE ( 2020, 22, 12 ) ;
#98 = FACE_BOUND ( 'NONE', #87, .T. ) ;
#99 = APPROVAL_DATE_TIME ( #228, #105 ) ;
#100 = CARTESIAN_POINT ( 'NONE',  ( -3.000000000000000000, 0.000000000000000000, 0.000000000000000000 ) ) ;
#101 = DATE_TIME_ROLE ( 'creation_date' ) ;
#102 = CYLINDRICAL_SURFACE ( 'NONE', #210, 9.000000000000000000 ) ;
#103 = AXIS2_PLACEMENT_3D ( 'NONE', #312, #280, #305 ) ;
#104 = DIRECTION ( 'NONE',  ( 0.000000000000000000, 0.000000000000000000, 1.000000000000000000 ) ) ;
#105 = APPROVAL ( #172, 'UNSPECIFIED' ) ;
#106 = EDGE_CURVE ( 'NONE', #91, #294, #179, .T. ) ;
#107 = DIRECTION ( 'NONE',  ( 0.000000000000000000, 0.000000000000000000, 1.000000000000000000 ) ) ;
#108 = CIRCLE ( 'NONE', #221, 9.000000000000000000 ) ;
#109 = AXIS2_PLACEMENT_3D ( 'NONE', #217, #8, #183 ) ;
#110 = LOCAL_TIME ( 17, 47, 40.00000000000000000, #170 ) ;
#111 = DIRECTION ( 'NONE',  ( -1.000000000000000000, -0.000000000000000000, -0.000000000000000000 ) ) ;
#112 = ADVANCED_FACE ( 'NONE', ( #152 ), #310, .T. ) ;
#113 = PRODUCT_DEFINITION_SHAPE ( 'NONE', 'NONE',  #318 ) ;
#114 = EDGE_LOOP ( 'NONE', ( #327, #272, #164, #319 ) ) ;
#115 = CARTESIAN_POINT ( 'NONE',  ( 3.000000000000000000, 0.000000000000000000, 12.69999999999999929 ) ) ;
#116 = DIRECTION ( 'NONE',  ( 0.000000000000000000, 0.000000000000000000, 1.000000000000000000 ) ) ;
#117 = PRODUCT_DEFINITION_FORMATION_WITH_SPECIFIED_SOURCE ( 'ANY', '', #224, .NOT_KNOWN. ) ;
#118 = ORIENTED_EDGE ( 'NONE', *, *, #84, .T. ) ;
#119 = EDGE_CURVE ( 'NONE', #249, #44, #317, .T. ) ;
#120 = APPLICATION_PROTOCOL_DEFINITION ( 'international standard', 'config_control_design', 1994, #299 ) ;
#121 = ORIENTED_EDGE ( 'NONE', *, *, #132, .F. ) ;
#122 = EDGE_LOOP ( 'NONE', ( #188, #82, #88, #263 ) ) ;
#123 =( LENGTH_UNIT ( ) NAMED_UNIT ( * ) SI_UNIT ( .MILLI., .METRE. ) );
#124 = AXIS2_PLACEMENT_3D ( 'NONE', #54, #50, #107 ) ;
#125 = ORIENTED_EDGE ( 'NONE', *, *, #22, .T. ) ;
#126 = DATE_AND_TIME ( #256, #261 ) ;
#127 = ORIENTED_EDGE ( 'NONE', *, *, #190, .F. ) ;
#128 = ADVANCED_FACE ( 'NONE', ( #176 ), #102, .F. ) ;
#129 = APPROVAL_DATE_TIME ( #227, #259 ) ;
#130 = DIRECTION ( 'NONE',  ( 0.000000000000000000, 0.000000000000000000, 1.000000000000000000 ) ) ;
#131 = COORDINATED_UNIVERSAL_TIME_OFFSET ( 8, 0, .AHEAD. ) ;
#132 = EDGE_CURVE ( 'NONE', #44, #249, #180, .T. ) ;
#133 = DIRECTION ( 'NONE',  ( -1.000000000000000000, -0.000000000000000000, -0.000000000000000000 ) ) ;
#134 = COORDINATED_UNIVERSAL_TIME_OFFSET ( 8, 0, .AHEAD. ) ;
#135 = DIRECTION ( 'NONE',  ( -1.000000000000000000, -0.000000000000000000, -0.000000000000000000 ) ) ;
#136 = DIRECTION ( 'NONE',  ( 0.000000000000000000, 0.000000000000000000, 1.000000000000000000 ) ) ;
#137 = CARTESIAN_POINT ( 'NONE',  ( 0.02150000000000106340, 0.000000000000000000, 0.000000000000000000 ) ) ;
#138 = CARTESIAN_POINT ( 'NONE',  ( 2.999999999999999112, 1.102182119232617714E-15, -9.000000000000000000 ) ) ;
#139 = FACE_OUTER_BOUND ( 'NONE', #328, .T. ) ;
#140 = CARTESIAN_POINT ( 'NONE',  ( 0.02150000000000106340, 0.000000000000000000, 0.000000000000000000 ) ) ;
#141 = ORIENTED_EDGE ( 'NONE', *, *, #70, .F. ) ;
#142 = CIRCLE ( 'NONE', #195, 9.000000000000000000 ) ;
#143 = CARTESIAN_POINT ( 'NONE',  ( 0.02150000000000106340, 0.000000000000000000, 9.000000000000000000 ) ) ;
#144 = DIRECTION ( 'NONE',  ( -1.000000000000000000, 0.000000000000000000, -0.000000000000000000 ) ) ;
#145 = ADVANCED_FACE ( 'NONE', ( #81 ), #7, .F. ) ;
#146 =( GEOMETRIC_REPRESENTATION_CONTEXT ( 3 ) GLOBAL_UNCERTAINTY_ASSIGNED_CONTEXT ( ( #292 ) ) GLOBAL_UNIT_ASSIGNED_CONTEXT ( ( #123, #192, #35 ) ) REPRESENTATION_CONTEXT ( 'NONE', 'WORKASPACE' ) );
#147 = PERSON_AND_ORGANIZATION ( #151, #5 ) ;
#148 = DIRECTION ( 'NONE',  ( -1.000000000000000000, -0.000000000000000000, -0.000000000000000000 ) ) ;
#149 = ADVANCED_FACE ( 'NONE', ( #295 ), #211, .F. ) ;
#150 = COORDINATED_UNIVERSAL_TIME_OFFSET ( 8, 0, .AHEAD. ) ;
#151 = PERSON ( 'UNSPECIFIED', 'UNSPECIFIED', 'UNSPECIFIED', ('UNSPECIFIED'), ('UNSPECIFIED'), ('UNSPECIFIED') ) ;
#152 = FACE_OUTER_BOUND ( 'NONE', #203, .T. ) ;
#153 = ORIENTED_EDGE ( 'NONE', *, *, #169, .F. ) ;
#154 = APPROVAL_ROLE ( '' ) ;
#155 = AXIS2_PLACEMENT_3D ( 'NONE', #13, #144, #243 ) ;
#156 = LINE ( 'NONE', #332, #83 ) ;
#157 = PERSON_AND_ORGANIZATION ( #151, #5 ) ;
#158 = CC_DESIGN_APPROVAL ( #105, ( #318 ) ) ;
#159 = LINE ( 'NONE', #31, #251 ) ;
#160 = DIRECTION ( 'NONE',  ( 1.000000000000000000, 0.000000000000000000, 0.000000000000000000 ) ) ;
#161 = CC_DESIGN_PERSON_AND_ORGANIZATION_ASSIGNMENT ( #47, #68, ( #117 ) ) ;
#162 = CARTESIAN_POINT ( 'NONE',  ( 0.000000000000000000, 0.000000000000000000, 0.000000000000000000 ) ) ;
#163 = VERTEX_POINT ( 'NONE', #58 ) ;
#164 = ORIENTED_EDGE ( 'NONE', *, *, #63, .T. ) ;
#165 = CARTESIAN_POINT ( 'NONE',  ( -1.614212418857619014, 0.000000000000000000, 0.000000000000000000 ) ) ;
#166 = ORIENTED_EDGE ( 'NONE', *, *, #22, .F. ) ;
#167 = LINE ( 'NONE', #301, #78 ) ;
#168 = VERTEX_POINT ( 'NONE', #314 ) ;
#169 = EDGE_CURVE ( 'NONE', #193, #278, #216, .T. ) ;
#170 = COORDINATED_UNIVERSAL_TIME_OFFSET ( 8, 0, .AHEAD. ) ;
#171 = ORIENTED_EDGE ( 'NONE', *, *, #169, .T. ) ;
#172 = APPROVAL_STATUS ( 'not_yet_approved' ) ;
#173 = FACE_OUTER_BOUND ( 'NONE', #191, .T. ) ;
#174 = CARTESIAN_POINT ( 'NONE',  ( -0.02150000000000047012, 0.000000000000000000, 9.000000000000000000 ) ) ;
#175 = ORIENTED_EDGE ( 'NONE', *, *, #270, .T. ) ;
#176 = FACE_OUTER_BOUND ( 'NONE', #189, .T. ) ;
#177 = SECURITY_CLASSIFICATION_LEVEL ( 'unclassified' ) ;
#178 = AXIS2_PLACEMENT_3D ( 'NONE', #137, #214, #77 ) ;
#179 = LINE ( 'NONE', #277, #10 ) ;
#180 = CIRCLE ( 'NONE', #324, 12.69999999999999929 ) ;
#181 = DIRECTION ( 'NONE',  ( 0.000000000000000000, 0.000000000000000000, 1.000000000000000000 ) ) ;
#182 = DIRECTION ( 'NONE',  ( 0.000000000000000000, 0.000000000000000000, 1.000000000000000000 ) ) ;
#183 = DIRECTION ( 'NONE',  ( 0.000000000000000000, 0.000000000000000000, -1.000000000000000000 ) ) ;
#184 = AXIS2_PLACEMENT_3D ( 'NONE', #52, #160, #206 ) ;
#185 = CARTESIAN_POINT ( 'NONE',  ( -1.614212418857619014, 0.000000000000000000, 0.000000000000000000 ) ) ;
#186 = PRODUCT_RELATED_PRODUCT_CATEGORY ( 'detail', '', ( #224 ) ) ;
#187 = EDGE_CURVE ( 'NONE', #219, #235, #142, .T. ) ;
#188 = ORIENTED_EDGE ( 'NONE', *, *, #29, .F. ) ;
#189 = EDGE_LOOP ( 'NONE', ( #80, #296, #12, #127 ) ) ;
#190 = EDGE_CURVE ( 'NONE', #235, #302, #213, .T. ) ;
#191 = EDGE_LOOP ( 'NONE', ( #293, #166 ) ) ;
#192 =( NAMED_UNIT ( * ) PLANE_ANGLE_UNIT ( ) SI_UNIT ( $, .RADIAN. ) );
#193 = VERTEX_POINT ( 'NONE', #285 ) ;
#194 = AXIS2_PLACEMENT_3D ( 'NONE', #40, #72, #48 ) ;
#195 = AXIS2_PLACEMENT_3D ( 'NONE', #236, #79, #182 ) ;
#196 = DIRECTION ( 'NONE',  ( 1.000000000000000000, 0.000000000000000000, 0.000000000000000000 ) ) ;
#197 = APPROVAL_PERSON_ORGANIZATION ( #41, #259, #199 ) ;
#198 = ORIENTED_EDGE ( 'NONE', *, *, #270, .F. ) ;
#199 = APPROVAL_ROLE ( '' ) ;
#200 = DIRECTION ( 'NONE',  ( -1.000000000000000000, -0.000000000000000000, -0.000000000000000000 ) ) ;
#201 = DATE_AND_TIME ( #97, #9 ) ;
#202 = CARTESIAN_POINT ( 'NONE',  ( -3.000000000000000000, 0.000000000000000000, 0.000000000000000000 ) ) ;
#203 = EDGE_LOOP ( 'NONE', ( #198, #171, #67, #268 ) ) ;
#204 = APPROVAL_STATUS ( 'not_yet_approved' ) ;
#205 = LINE ( 'NONE', #308, #250 ) ;
#206 = DIRECTION ( 'NONE',  ( 0.000000000000000000, 0.000000000000000000, -1.000000000000000000 ) ) ;
#207 = DIRECTION ( 'NONE',  ( 0.000000000000000000, 0.000000000000000000, 1.000000000000000000 ) ) ;
#208 = PERSON_AND_ORGANIZATION_ROLE ( 'design_owner' ) ;
#209 = CLOSED_SHELL ( 'NONE', ( #247, #149, #128, #304, #329, #145, #281, #112, #74, #93 ) ) ;
#210 = AXIS2_PLACEMENT_3D ( 'NONE', #282, #49, #24 ) ;
#211 = CYLINDRICAL_SURFACE ( 'NONE', #25, 9.000000000000000000 ) ;
#212 = EDGE_CURVE ( 'NONE', #91, #163, #266, .T. ) ;
#213 = LINE ( 'NONE', #291, #257 ) ;
#214 = DIRECTION ( 'NONE',  ( -1.000000000000000000, -0.000000000000000000, -0.000000000000000000 ) ) ;
#215 = CARTESIAN_POINT ( 'NONE',  ( 3.000000000000000000, 0.000000000000000000, 0.000000000000000000 ) ) ;
#216 = CIRCLE ( 'NONE', #231, 12.69999999999999929 ) ;
#217 = CARTESIAN_POINT ( 'NONE',  ( -0.02150000000000047012, 0.000000000000000000, 0.000000000000000000 ) ) ;
#218 = CARTESIAN_POINT ( 'NONE',  ( -1.614212418857619014, 0.000000000000000000, 0.000000000000000000 ) ) ;
#219 = VERTEX_POINT ( 'NONE', #138 ) ;
#220 = CYLINDRICAL_SURFACE ( 'NONE', #226, 9.000000000000000000 ) ;
#221 = AXIS2_PLACEMENT_3D ( 'NONE', #4, #148, #181 ) ;
#222 = APPROVAL_PERSON_ORGANIZATION ( #39, #105, #154 ) ;
#223 = SECURITY_CLASSIFICATION ( '', '', #177 ) ;
#224 = PRODUCT ( 'Q-SHPQWP-18-532-M', 'Q-SHPQWP-18-532-M', '', ( #45 ) ) ;
#225 = ORIENTED_EDGE ( 'NONE', *, *, #253, .F. ) ;
#226 = AXIS2_PLACEMENT_3D ( 'NONE', #165, #64, #36 ) ;
#227 = DATE_AND_TIME ( #23, #110 ) ;
#228 = DATE_AND_TIME ( #38, #69 ) ;
#229 = PLANE ( 'NONE',  #103 ) ;
#230 = ORIENTED_EDGE ( 'NONE', *, *, #245, .F. ) ;
#231 = AXIS2_PLACEMENT_3D ( 'NONE', #215, #264, #104 ) ;
#232 = PERSON_AND_ORGANIZATION ( #151, #5 ) ;
#233 = CARTESIAN_POINT ( 'NONE',  ( -3.000000000000000000, 1.102182119232617714E-15, -9.000000000000000000 ) ) ;
#234 = APPROVAL_STATUS ( 'not_yet_approved' ) ;
#235 = VERTEX_POINT ( 'NONE', #316 ) ;
#236 = CARTESIAN_POINT ( 'NONE',  ( 2.999999999999999112, 0.000000000000000000, 0.000000000000000000 ) ) ;
#237 = AXIS2_PLACEMENT_3D ( 'NONE', #162, #323, #66 ) ;
#238 = ORIENTED_EDGE ( 'NONE', *, *, #132, .T. ) ;
#239 = CIRCLE ( 'NONE', #178, 9.000000000000000000 ) ;
#240 = AXIS2_PLACEMENT_3D ( 'NONE', #185, #75, #136 ) ;
#241 = DIRECTION ( 'NONE',  ( -1.000000000000000000, -0.000000000000000000, -0.000000000000000000 ) ) ;
#242 = EDGE_CURVE ( 'NONE', #278, #193, #300, .T. ) ;
#243 = DIRECTION ( 'NONE',  ( -0.000000000000000000, 0.000000000000000000, 1.000000000000000000 ) ) ;
#244 = APPROVAL_PERSON_ORGANIZATION ( #147, #53, #3 ) ;
#245 = EDGE_CURVE ( 'NONE', #163, #65, #159, .T. ) ;
#246 = CC_DESIGN_DATE_AND_TIME_ASSIGNMENT ( #201, #279, ( #223 ) ) ;
#247 = ADVANCED_FACE ( 'NONE', ( #139 ), #262, .T. ) ;
#248 = FACE_OUTER_BOUND ( 'NONE', #96, .T. ) ;
#249 = VERTEX_POINT ( 'NONE', #32 ) ;
#250 = VECTOR ( 'NONE', #95, 1000.000000000000000 ) ;
#251 = VECTOR ( 'NONE', #241, 1000.000000000000000 ) ;
#252 = PERSON_AND_ORGANIZATION_ROLE ( 'creator' ) ;
#253 = EDGE_CURVE ( 'NONE', #168, #302, #16, .T. ) ;
#254 = DATE_AND_TIME ( #311, #306 ) ;
#255 = CARTESIAN_POINT ( 'NONE',  ( -3.000000000000000000, 0.000000000000000000, 0.000000000000000000 ) ) ;
#256 = CALENDAR_DATE ( 2020, 22, 12 ) ;
#257 = VECTOR ( 'NONE', #56, 1000.000000000000000 ) ;
#258 = PERSON_AND_ORGANIZATION_ROLE ( 'classification_officer' ) ;
#259 = APPROVAL ( #234, 'UNSPECIFIED' ) ;
#260 = DIRECTION ( 'NONE',  ( 0.000000000000000000, 0.000000000000000000, 1.000000000000000000 ) ) ;
#261 = LOCAL_TIME ( 17, 47, 40.00000000000000000, #17 ) ;
#262 = CYLINDRICAL_SURFACE ( 'NONE', #30, 12.69999999999999929 ) ;
#263 = ORIENTED_EDGE ( 'NONE', *, *, #21, .T. ) ;
#264 = DIRECTION ( 'NONE',  ( -1.000000000000000000, -0.000000000000000000, -0.000000000000000000 ) ) ;
#265 = AXIS2_PLACEMENT_3D ( 'NONE', #284, #42, #26 ) ;
#266 = CIRCLE ( 'NONE', #109, 9.000000000000000000 ) ;
#267 = CARTESIAN_POINT ( 'NONE',  ( -3.000000000000000000, 0.000000000000000000, 9.000000000000000000 ) ) ;
#268 = ORIENTED_EDGE ( 'NONE', *, *, #119, .F. ) ;
#269 = PLANE ( 'NONE',  #155 ) ;
#270 = EDGE_CURVE ( 'NONE', #193, #249, #167, .T. ) ;
#271 = AXIS2_PLACEMENT_3D ( 'NONE', #140, #111, #116 ) ;
#272 = ORIENTED_EDGE ( 'NONE', *, *, #245, .T. ) ;
#273 = ORIENTED_EDGE ( 'NONE', *, *, #106, .T. ) ;
#274 = SHAPE_DEFINITION_REPRESENTATION ( #113, #288 ) ;
#275 = CIRCLE ( 'NONE', #89, 9.000000000000000000 ) ;
#276 = CC_DESIGN_PERSON_AND_ORGANIZATION_ASSIGNMENT ( #19, #307, ( #117 ) ) ;
#277 = CARTESIAN_POINT ( 'NONE',  ( -1.614212418857619014, 0.000000000000000000, 9.000000000000000000 ) ) ;
#278 = VERTEX_POINT ( 'NONE', #115 ) ;
#279 = DATE_TIME_ROLE ( 'classification_date' ) ;
#280 = DIRECTION ( 'NONE',  ( -1.000000000000000000, 0.000000000000000000, -0.000000000000000000 ) ) ;
#281 = ADVANCED_FACE ( 'NONE', ( #326, #86 ), #297, .F. ) ;
#282 = CARTESIAN_POINT ( 'NONE',  ( -1.614212418857619014, 0.000000000000000000, 0.000000000000000000 ) ) ;
#283 = CARTESIAN_POINT ( 'NONE',  ( -1.614212418857619014, 0.000000000000000000, 0.000000000000000000 ) ) ;
#284 = CARTESIAN_POINT ( 'NONE',  ( -0.02150000000000052217, 9.000000000000000000, 0.000000000000000000 ) ) ;
#285 = CARTESIAN_POINT ( 'NONE',  ( 3.000000000000000000, 1.555301434917138433E-15, -12.69999999999999929 ) ) ;
#286 = MANIFOLD_SOLID_BREP ( 'Ðý×', #209 ) ;
#287 = DIRECTION ( 'NONE',  ( 0.000000000000000000, 0.000000000000000000, 1.000000000000000000 ) ) ;
#288 = ADVANCED_BREP_SHAPE_REPRESENTATION ( 'Q-SHPQWP-18-532-M', ( #286, #237 ), #146 ) ;
#289 = CC_DESIGN_APPROVAL ( #53, ( #117 ) ) ;
#290 = CC_DESIGN_SECURITY_CLASSIFICATION ( #223, ( #117 ) ) ;
#291 = CARTESIAN_POINT ( 'NONE',  ( -1.614212418857619014, 0.000000000000000000, 9.000000000000000000 ) ) ;
#292 = UNCERTAINTY_MEASURE_WITH_UNIT (LENGTH_MEASURE( 1.000000000000000082E-05 ), #123, 'distance_accuracy_value', 'NONE');
#293 = ORIENTED_EDGE ( 'NONE', *, *, #212, .F. ) ;
#294 = VERTEX_POINT ( 'NONE', #267 ) ;
#295 = FACE_OUTER_BOUND ( 'NONE', #114, .T. ) ;
#296 = ORIENTED_EDGE ( 'NONE', *, *, #29, .T. ) ;
#297 = PLANE ( 'NONE',  #85 ) ;
#298 = ORIENTED_EDGE ( 'NONE', *, *, #119, .T. ) ;
#299 = APPLICATION_CONTEXT ( 'configuration controlled 3d designs of mechanical parts and assemblies' ) ;
#300 = CIRCLE ( 'NONE', #124, 12.69999999999999929 ) ;
#301 = CARTESIAN_POINT ( 'NONE',  ( -1.614212418857619014, 1.555301434917138433E-15, -12.69999999999999929 ) ) ;
#302 = VERTEX_POINT ( 'NONE', #143 ) ;
#303 = ORIENTED_EDGE ( 'NONE', *, *, #76, .T. ) ;
#304 = ADVANCED_FACE ( 'NONE', ( #248 ), #269, .F. ) ;
#305 = DIRECTION ( 'NONE',  ( -0.000000000000000000, 0.000000000000000000, 1.000000000000000000 ) ) ;
#306 = LOCAL_TIME ( 17, 47, 40.00000000000000000, #150 ) ;
#307 = PERSON_AND_ORGANIZATION_ROLE ( 'design_supplier' ) ;
#308 = CARTESIAN_POINT ( 'NONE',  ( -1.614212418857619014, 0.000000000000000000, 12.69999999999999929 ) ) ;
#309 = ORIENTED_EDGE ( 'NONE', *, *, #242, .T. ) ;
#310 = CYLINDRICAL_SURFACE ( 'NONE', #62, 12.69999999999999929 ) ;
#311 = CALENDAR_DATE ( 2020, 22, 12 ) ;
#312 = CARTESIAN_POINT ( 'NONE',  ( 2.999999999999999556, 12.69999999999999929, 0.000000000000000000 ) ) ;
#313 = DESIGN_CONTEXT ( 'detailed design', #46, 'design' ) ;
#314 = CARTESIAN_POINT ( 'NONE',  ( 0.02150000000000106340, 1.102182119232617714E-15, -9.000000000000000000 ) ) ;
#315 = CC_DESIGN_PERSON_AND_ORGANIZATION_ASSIGNMENT ( #157, #258, ( #223 ) ) ;
#316 = CARTESIAN_POINT ( 'NONE',  ( 2.999999999999999112, 0.000000000000000000, 9.000000000000000000 ) ) ;
#317 = CIRCLE ( 'NONE', #194, 12.69999999999999929 ) ;
#318 = PRODUCT_DEFINITION ( 'UNKNOWN', '', #117, #313 ) ;
#319 = ORIENTED_EDGE ( 'NONE', *, *, #106, .F. ) ;
#320 = CC_DESIGN_PERSON_AND_ORGANIZATION_ASSIGNMENT ( #1, #252, ( #318 ) ) ;
#321 = DIRECTION ( 'NONE',  ( 0.000000000000000000, 0.000000000000000000, 1.000000000000000000 ) ) ;
#322 = EDGE_LOOP ( 'NONE', ( #61, #18 ) ) ;
#323 = DIRECTION ( 'NONE',  ( 0.000000000000000000, 0.000000000000000000, 1.000000000000000000 ) ) ;
#324 = AXIS2_PLACEMENT_3D ( 'NONE', #255, #20, #287 ) ;
#325 = ORIENTED_EDGE ( 'NONE', *, *, #21, .F. ) ;
#326 = FACE_BOUND ( 'NONE', #322, .T. ) ;
#327 = ORIENTED_EDGE ( 'NONE', *, *, #212, .T. ) ;
#328 = EDGE_LOOP ( 'NONE', ( #309, #175, #121, #141 ) ) ;
#329 = ADVANCED_FACE ( 'NONE', ( #59 ), #220, .F. ) ;
#330 = APPROVAL_DATE_TIME ( #254, #53 ) ;
#331 = FACE_OUTER_BOUND ( 'NONE', #333, .T. ) ;
#332 = CARTESIAN_POINT ( 'NONE',  ( -1.614212418857619014, 1.102182119232617714E-15, -9.000000000000000000 ) ) ;
#333 = EDGE_LOOP ( 'NONE', ( #11, #153 ) ) ;
#334 = CIRCLE ( 'NONE', #184, 9.000000000000000000 ) ;
#335 = DIRECTION ( 'NONE',  ( -1.000000000000000000, -0.000000000000000000, -0.000000000000000000 ) ) ;
ENDSEC;
END-ISO-10303-21;
